ISO-10303-21;
HEADER;
FILE_DESCRIPTION( ( 'STEP AP214' ), '1' );
FILE_NAME( 'p:/temp/worker_18/temp/exporttempdir_6040_385_e3dCC/format_0/AGRU_11050003207_Elbow 45\X2\00B0\X0\_PPR grey_32 - MOP 20 bar (architecture400).stp', '2022-03-09T12:12:28', ( 'License CC BY-ND 4.0' ), ( 'CADENAS' ), ' ', 'PARTsolutions', ' ' );
FILE_SCHEMA( ( 'AUTOMOTIVE_DESIGN { 1 0 10303 214 1 1 1 1 }' ) );
ENDSEC;
DATA;
#1 = MECHANICAL_DESIGN_GEOMETRIC_PRESENTATION_REPRESENTATION( ' ', ( #10, #11, #12, #13, #14, #15, #16, #17, #18, #19, #20, #21 ), #6 );
#2 = PRODUCT_DEFINITION_CONTEXT( '', #22, 'design' );
#3 = APPLICATION_PROTOCOL_DEFINITION( 'international standard', 'automotive_design', 2001, #22 );
#4 = PRODUCT_CATEGORY_RELATIONSHIP( 'NONE', 'NONE', #23, #24 );
#5 = SHAPE_DEFINITION_REPRESENTATION( #25, #26 );
#6 =  ( GEOMETRIC_REPRESENTATION_CONTEXT( 3 )GLOBAL_UNCERTAINTY_ASSIGNED_CONTEXT( ( #29 ) )GLOBAL_UNIT_ASSIGNED_CONTEXT( ( #31, #32, #33 ) )REPRESENTATION_CONTEXT( 'NONE', 'WORKSPACE' ) );
#10 = STYLED_ITEM( '', ( #35 ), #36 );
#11 = STYLED_ITEM( '', ( #37 ), #38 );
#12 = STYLED_ITEM( '', ( #39 ), #40 );
#13 = STYLED_ITEM( '', ( #41 ), #42 );
#14 = STYLED_ITEM( '', ( #43 ), #44 );
#15 = STYLED_ITEM( '', ( #45 ), #46 );
#16 = STYLED_ITEM( '', ( #47 ), #48 );
#17 = STYLED_ITEM( '', ( #49 ), #50 );
#18 = STYLED_ITEM( '', ( #51 ), #52 );
#19 = STYLED_ITEM( '', ( #53 ), #54 );
#20 = STYLED_ITEM( '', ( #55 ), #56 );
#21 = STYLED_ITEM( '', ( #57 ), #58 );
#22 = APPLICATION_CONTEXT( 'core data for automotive mechanical design processes' );
#23 = PRODUCT_CATEGORY( 'part', 'NONE' );
#24 = PRODUCT_RELATED_PRODUCT_CATEGORY( 'detail', ' ', ( #59 ) );
#25 = PRODUCT_DEFINITION_SHAPE( 'NONE', 'NONE', #60 );
#26 = ADVANCED_BREP_SHAPE_REPRESENTATION( '_AGRU_11050003207_Elbow 45\X2\00B0\X0\_PPR grey_32 - MOP 20 bar (architecture400)', ( #61, #62 ), #6 );
#29 = UNCERTAINTY_MEASURE_WITH_UNIT( LENGTH_MEASURE( 0.00100000000000000 ), #31, '', '' );
#31 =  ( CONVERSION_BASED_UNIT( 'MILLIMETRE', #65 )LENGTH_UNIT(  )NAMED_UNIT( #68 ) );
#32 =  ( NAMED_UNIT( #70 )PLANE_ANGLE_UNIT(  )SI_UNIT( $, .RADIAN. ) );
#33 =  ( NAMED_UNIT( #70 )SI_UNIT( $, .STERADIAN. )SOLID_ANGLE_UNIT(  ) );
#35 = PRESENTATION_STYLE_ASSIGNMENT( ( #76 ) );
#36 = ADVANCED_FACE( '', ( #77, #78 ), #79, .F. );
#37 = PRESENTATION_STYLE_ASSIGNMENT( ( #80 ) );
#38 = ADVANCED_FACE( '', ( #81, #82 ), #83, .F. );
#39 = PRESENTATION_STYLE_ASSIGNMENT( ( #84 ) );
#40 = ADVANCED_FACE( '', ( #85 ), #86, .F. );
#41 = PRESENTATION_STYLE_ASSIGNMENT( ( #87 ) );
#42 = ADVANCED_FACE( '', ( #88, #89 ), #90, .F. );
#43 = PRESENTATION_STYLE_ASSIGNMENT( ( #91 ) );
#44 = ADVANCED_FACE( '', ( #92, #93 ), #94, .T. );
#45 = PRESENTATION_STYLE_ASSIGNMENT( ( #95 ) );
#46 = ADVANCED_FACE( '', ( #96, #97 ), #98, .T. );
#47 = PRESENTATION_STYLE_ASSIGNMENT( ( #99 ) );
#48 = ADVANCED_FACE( '', ( #100, #101 ), #102, .F. );
#49 = PRESENTATION_STYLE_ASSIGNMENT( ( #103 ) );
#50 = ADVANCED_FACE( '', ( #104, #105 ), #106, .T. );
#51 = PRESENTATION_STYLE_ASSIGNMENT( ( #107 ) );
#52 = ADVANCED_FACE( '', ( #108, #109 ), #110, .F. );
#53 = PRESENTATION_STYLE_ASSIGNMENT( ( #111 ) );
#54 = ADVANCED_FACE( '', ( #112, #113 ), #114, .T. );
#55 = PRESENTATION_STYLE_ASSIGNMENT( ( #115 ) );
#56 = ADVANCED_FACE( '', ( #116 ), #117, .T. );
#57 = PRESENTATION_STYLE_ASSIGNMENT( ( #118 ) );
#58 = ADVANCED_FACE( '', ( #119, #120 ), #121, .F. );
#59 = PRODUCT( '_AGRU_11050003207_Elbow 45\X2\00B0\X0\_PPR grey_32 - MOP 20 bar (architecture400)', '_AGRU_11050003207_Elbow 45\X2\00B0\X0\_PPR grey_32 - MOP 20 bar (architecture400)', 'PART-_AGRU_11050003207_Elbow 45\X2\00B0\X0\_PPR grey_32 - MOP 20 bar (architecture400)-DESC', ( #122 ) );
#60 = PRODUCT_DEFINITION( 'NONE', 'NONE', #123, #2 );
#61 = MANIFOLD_SOLID_BREP( '_AGRU_11050003207_Elbow 45\X2\00B0\X0\_PPR grey_32 - MOP 20 bar (architecture400)', #124 );
#62 = AXIS2_PLACEMENT_3D( '', #125, #126, #127 );
#65 = LENGTH_MEASURE_WITH_UNIT( LENGTH_MEASURE( 1.00000000000000 ), #128 );
#68 = DIMENSIONAL_EXPONENTS( 1.00000000000000, 0.000000000000000, 0.000000000000000, 0.000000000000000, 0.000000000000000, 0.000000000000000, 0.000000000000000 );
#70 = DIMENSIONAL_EXPONENTS( 0.000000000000000, 0.000000000000000, 0.000000000000000, 0.000000000000000, 0.000000000000000, 0.000000000000000, 0.000000000000000 );
#76 = SURFACE_STYLE_USAGE( .BOTH., #129 );
#77 = FACE_OUTER_BOUND( '', #130, .T. );
#78 = FACE_OUTER_BOUND( '', #131, .T. );
#79 = CYLINDRICAL_SURFACE( '', #132, 14.1666666667000 );
#80 = SURFACE_STYLE_USAGE( .BOTH., #133 );
#81 = FACE_OUTER_BOUND( '', #134, .T. );
#82 = FACE_OUTER_BOUND( '', #135, .T. );
#83 = CYLINDRICAL_SURFACE( '', #136, 16.0000000000000 );
#84 = SURFACE_STYLE_USAGE( .BOTH., #137 );
#85 = FACE_OUTER_BOUND( '', #138, .T. );
#86 = SPHERICAL_SURFACE( '', #139, 14.1666666667000 );
#87 = SURFACE_STYLE_USAGE( .BOTH., #140 );
#88 = FACE_BOUND( '', #141, .T. );
#89 = FACE_OUTER_BOUND( '', #142, .T. );
#90 = PLANE( '', #143 );
#91 = SURFACE_STYLE_USAGE( .BOTH., #144 );
#92 = FACE_OUTER_BOUND( '', #145, .T. );
#93 = FACE_OUTER_BOUND( '', #146, .T. );
#94 = CYLINDRICAL_SURFACE( '', #147, 21.5000000000000 );
#95 = SURFACE_STYLE_USAGE( .BOTH., #148 );
#96 = FACE_OUTER_BOUND( '', #149, .T. );
#97 = FACE_OUTER_BOUND( '', #150, .T. );
#98 = CYLINDRICAL_SURFACE( '', #151, 21.5000000000000 );
#99 = SURFACE_STYLE_USAGE( .BOTH., #152 );
#100 = FACE_OUTER_BOUND( '', #153, .T. );
#101 = FACE_OUTER_BOUND( '', #154, .T. );
#102 = CYLINDRICAL_SURFACE( '', #155, 14.1666666667000 );
#103 = SURFACE_STYLE_USAGE( .BOTH., #156 );
#104 = FACE_BOUND( '', #157, .T. );
#105 = FACE_OUTER_BOUND( '', #158, .T. );
#106 = PLANE( '', #159 );
#107 = SURFACE_STYLE_USAGE( .BOTH., #160 );
#108 = FACE_BOUND( '', #161, .T. );
#109 = FACE_OUTER_BOUND( '', #162, .T. );
#110 = PLANE( '', #163 );
#111 = SURFACE_STYLE_USAGE( .BOTH., #164 );
#112 = FACE_OUTER_BOUND( '', #165, .T. );
#113 = FACE_BOUND( '', #166, .T. );
#114 = PLANE( '', #167 );
#115 = SURFACE_STYLE_USAGE( .BOTH., #168 );
#116 = FACE_OUTER_BOUND( '', #169, .T. );
#117 = SPHERICAL_SURFACE( '', #170, 21.5000000000000 );
#118 = SURFACE_STYLE_USAGE( .BOTH., #171 );
#119 = FACE_OUTER_BOUND( '', #172, .T. );
#120 = FACE_OUTER_BOUND( '', #173, .T. );
#121 = CYLINDRICAL_SURFACE( '', #174, 16.0000000000000 );
#122 = PRODUCT_CONTEXT( '', #22, 'mechanical' );
#123 = PRODUCT_DEFINITION_FORMATION_WITH_SPECIFIED_SOURCE( ' ', 'NONE', #59, .NOT_KNOWN. );
#124 = CLOSED_SHELL( '', ( #42, #44, #56, #46, #48, #50, #38, #52, #58, #54, #36, #40 ) );
#125 = CARTESIAN_POINT( '', ( 0.000000000000000, 0.000000000000000, 0.000000000000000 ) );
#126 = DIRECTION( '', ( 0.000000000000000, 0.000000000000000, 1.00000000000000 ) );
#127 = DIRECTION( '', ( 1.00000000000000, 0.000000000000000, 0.000000000000000 ) );
#128 =  ( LENGTH_UNIT(  )NAMED_UNIT( #68 )SI_UNIT( .MILLI., .METRE. ) );
#129 = SURFACE_SIDE_STYLE( '', ( #176 ) );
#130 = EDGE_LOOP( '', ( #177 ) );
#131 = EDGE_LOOP( '', ( #178, #179 ) );
#132 = AXIS2_PLACEMENT_3D( '', #180, #181, #182 );
#133 = SURFACE_SIDE_STYLE( '', ( #183 ) );
#134 = EDGE_LOOP( '', ( #184 ) );
#135 = EDGE_LOOP( '', ( #185 ) );
#136 = AXIS2_PLACEMENT_3D( '', #186, #187, #188 );
#137 = SURFACE_SIDE_STYLE( '', ( #189 ) );
#138 = EDGE_LOOP( '', ( #190, #191 ) );
#139 = AXIS2_PLACEMENT_3D( '', #192, #193, #194 );
#140 = SURFACE_SIDE_STYLE( '', ( #195 ) );
#141 = EDGE_LOOP( '', ( #196 ) );
#142 = EDGE_LOOP( '', ( #197 ) );
#143 = AXIS2_PLACEMENT_3D( '', #198, #199, #200 );
#144 = SURFACE_SIDE_STYLE( '', ( #201 ) );
#145 = EDGE_LOOP( '', ( #202 ) );
#146 = EDGE_LOOP( '', ( #203, #204 ) );
#147 = AXIS2_PLACEMENT_3D( '', #205, #206, #207 );
#148 = SURFACE_SIDE_STYLE( '', ( #208 ) );
#149 = EDGE_LOOP( '', ( #209 ) );
#150 = EDGE_LOOP( '', ( #210, #211 ) );
#151 = AXIS2_PLACEMENT_3D( '', #212, #213, #214 );
#152 = SURFACE_SIDE_STYLE( '', ( #215 ) );
#153 = EDGE_LOOP( '', ( #216, #217 ) );
#154 = EDGE_LOOP( '', ( #218 ) );
#155 = AXIS2_PLACEMENT_3D( '', #219, #220, #221 );
#156 = SURFACE_SIDE_STYLE( '', ( #222 ) );
#157 = EDGE_LOOP( '', ( #223 ) );
#158 = EDGE_LOOP( '', ( #224 ) );
#159 = AXIS2_PLACEMENT_3D( '', #225, #226, #227 );
#160 = SURFACE_SIDE_STYLE( '', ( #228 ) );
#161 = EDGE_LOOP( '', ( #229 ) );
#162 = EDGE_LOOP( '', ( #230 ) );
#163 = AXIS2_PLACEMENT_3D( '', #231, #232, #233 );
#164 = SURFACE_SIDE_STYLE( '', ( #234 ) );
#165 = EDGE_LOOP( '', ( #235 ) );
#166 = EDGE_LOOP( '', ( #236 ) );
#167 = AXIS2_PLACEMENT_3D( '', #237, #238, #239 );
#168 = SURFACE_SIDE_STYLE( '', ( #240 ) );
#169 = EDGE_LOOP( '', ( #241, #242 ) );
#170 = AXIS2_PLACEMENT_3D( '', #243, #244, #245 );
#171 = SURFACE_SIDE_STYLE( '', ( #246 ) );
#172 = EDGE_LOOP( '', ( #247 ) );
#173 = EDGE_LOOP( '', ( #248 ) );
#174 = AXIS2_PLACEMENT_3D( '', #249, #250, #251 );
#176 = SURFACE_STYLE_FILL_AREA( #252 );
#177 = ORIENTED_EDGE( '', *, *, #253, .T. );
#178 = ORIENTED_EDGE( '', *, *, #254, .F. );
#179 = ORIENTED_EDGE( '', *, *, #255, .F. );
#180 = CARTESIAN_POINT( '', ( 22.2738636073762, 0.000000000000000, 32.7738636073762 ) );
#181 = DIRECTION( '', ( -0.707106781186548, 0.000000000000000, -0.707106781186548 ) );
#182 = DIRECTION( '', ( 0.707106781186547, 0.000000000000000, -0.707106781186547 ) );
#183 = SURFACE_STYLE_FILL_AREA( #256 );
#184 = ORIENTED_EDGE( '', *, *, #257, .T. );
#185 = ORIENTED_EDGE( '', *, *, #258, .T. );
#186 = CARTESIAN_POINT( '', ( 0.000000000000000, 0.000000000000000, 24.6666666666667 ) );
#187 = DIRECTION( '', ( -0.000000000000000, 0.000000000000000, -1.00000000000000 ) );
#188 = DIRECTION( '', ( 1.00000000000000, 0.000000000000000, 0.000000000000000 ) );
#189 = SURFACE_STYLE_FILL_AREA( #259 );
#190 = ORIENTED_EDGE( '', *, *, #260, .F. );
#191 = ORIENTED_EDGE( '', *, *, #255, .T. );
#192 = CARTESIAN_POINT( '', ( -8.67361737988404E-15, 0.000000000000000, 10.5000000000000 ) );
#193 = DIRECTION( '', ( 0.000000000000000, 0.000000000000000, 1.00000000000000 ) );
#194 = DIRECTION( '', ( 1.00000000000000, 0.000000000000000, 0.000000000000000 ) );
#195 = SURFACE_STYLE_FILL_AREA( #261 );
#196 = ORIENTED_EDGE( '', *, *, #258, .F. );
#197 = ORIENTED_EDGE( '', *, *, #262, .F. );
#198 = CARTESIAN_POINT( '', ( 0.000000000000000, 0.000000000000000, -20.0000000000000 ) );
#199 = DIRECTION( '', ( 0.000000000000000, 0.000000000000000, 1.00000000000000 ) );
#200 = DIRECTION( '', ( 1.00000000000000, 0.000000000000000, -0.000000000000000 ) );
#201 = SURFACE_STYLE_FILL_AREA( #263 );
#202 = ORIENTED_EDGE( '', *, *, #262, .T. );
#203 = ORIENTED_EDGE( '', *, *, #264, .F. );
#204 = ORIENTED_EDGE( '', *, *, #265, .F. );
#205 = CARTESIAN_POINT( '', ( 0.000000000000000, 0.000000000000000, 10.5000000000000 ) );
#206 = DIRECTION( '', ( 0.000000000000000, -0.000000000000000, 1.00000000000000 ) );
#207 = DIRECTION( '', ( -1.00000000000000, 0.000000000000000, 0.000000000000000 ) );
#208 = SURFACE_STYLE_FILL_AREA( #266 );
#209 = ORIENTED_EDGE( '', *, *, #267, .F. );
#210 = ORIENTED_EDGE( '', *, *, #268, .T. );
#211 = ORIENTED_EDGE( '', *, *, #264, .T. );
#212 = CARTESIAN_POINT( '', ( 21.5667568261897, 0.000000000000000, 32.0667568261897 ) );
#213 = DIRECTION( '', ( -0.707106781186547, 0.000000000000000, -0.707106781186548 ) );
#214 = DIRECTION( '', ( 0.707106781186548, 0.000000000000000, -0.707106781186547 ) );
#215 = SURFACE_STYLE_FILL_AREA( #269 );
#216 = ORIENTED_EDGE( '', *, *, #254, .T. );
#217 = ORIENTED_EDGE( '', *, *, #260, .T. );
#218 = ORIENTED_EDGE( '', *, *, #270, .F. );
#219 = CARTESIAN_POINT( '', ( 0.000000000000000, 0.000000000000000, 24.6666666666667 ) );
#220 = DIRECTION( '', ( -0.000000000000000, 0.000000000000000, -1.00000000000000 ) );
#221 = DIRECTION( '', ( 1.00000000000000, 0.000000000000000, 0.000000000000000 ) );
#222 = SURFACE_STYLE_FILL_AREA( #271 );
#223 = ORIENTED_EDGE( '', *, *, #270, .T. );
#224 = ORIENTED_EDGE( '', *, *, #257, .F. );
#225 = CARTESIAN_POINT( '', ( -16.0000000000000, 0.000000000000000, 1.73472347597681E-15 ) );
#226 = DIRECTION( '', ( 0.000000000000000, 0.000000000000000, -1.00000000000000 ) );
#227 = DIRECTION( '', ( -1.00000000000000, 0.000000000000000, 0.000000000000000 ) );
#228 = SURFACE_STYLE_FILL_AREA( #272 );
#229 = ORIENTED_EDGE( '', *, *, #273, .F. );
#230 = ORIENTED_EDGE( '', *, *, #267, .T. );
#231 = CARTESIAN_POINT( '', ( 6.36396103067893, 0.000000000000000, 47.2695526217005 ) );
#232 = DIRECTION( '', ( -0.707106781186547, 0.000000000000000, -0.707106781186548 ) );
#233 = DIRECTION( '', ( -0.707106781186548, 0.000000000000000, 0.707106781186547 ) );
#234 = SURFACE_STYLE_FILL_AREA( #274 );
#235 = ORIENTED_EDGE( '', *, *, #275, .T. );
#236 = ORIENTED_EDGE( '', *, *, #253, .F. );
#237 = CARTESIAN_POINT( '', ( -2.59272486435068, 0.000000000000000, 27.9419672692682 ) );
#238 = DIRECTION( '', ( 0.707106781186548, -0.000000000000000, 0.707106781186548 ) );
#239 = DIRECTION( '', ( 0.707106781186547, 0.000000000000000, -0.707106781186547 ) );
#240 = SURFACE_STYLE_FILL_AREA( #276 );
#241 = ORIENTED_EDGE( '', *, *, #265, .T. );
#242 = ORIENTED_EDGE( '', *, *, #268, .F. );
#243 = CARTESIAN_POINT( '', ( -3.46944695195361E-15, 0.000000000000000, 10.5000000000000 ) );
#244 = DIRECTION( '', ( 0.000000000000000, 0.000000000000000, 1.00000000000000 ) );
#245 = DIRECTION( '', ( 1.00000000000000, 0.000000000000000, 0.000000000000000 ) );
#246 = SURFACE_STYLE_FILL_AREA( #277 );
#247 = ORIENTED_EDGE( '', *, *, #273, .T. );
#248 = ORIENTED_EDGE( '', *, *, #275, .F. );
#249 = CARTESIAN_POINT( '', ( 22.2738636073762, 0.000000000000000, 32.7738636073762 ) );
#250 = DIRECTION( '', ( -0.707106781186548, 0.000000000000000, -0.707106781186548 ) );
#251 = DIRECTION( '', ( 0.707106781186547, 0.000000000000000, -0.707106781186547 ) );
#252 = FILL_AREA_STYLE( '', ( #278 ) );
#253 = EDGE_CURVE( '', #279, #279, #280, .T. );
#254 = EDGE_CURVE( '', #281, #282, #283, .T. );
#255 = EDGE_CURVE( '', #282, #281, #284, .T. );
#256 = FILL_AREA_STYLE( '', ( #285 ) );
#257 = EDGE_CURVE( '', #286, #286, #287, .T. );
#258 = EDGE_CURVE( '', #288, #288, #289, .F. );
#259 = FILL_AREA_STYLE( '', ( #290 ) );
#260 = EDGE_CURVE( '', #282, #281, #291, .T. );
#261 = FILL_AREA_STYLE( '', ( #292 ) );
#262 = EDGE_CURVE( '', #293, #293, #294, .T. );
#263 = FILL_AREA_STYLE( '', ( #295 ) );
#264 = EDGE_CURVE( '', #296, #297, #298, .F. );
#265 = EDGE_CURVE( '', #297, #296, #299, .T. );
#266 = FILL_AREA_STYLE( '', ( #300 ) );
#267 = EDGE_CURVE( '', #301, #301, #302, .T. );
#268 = EDGE_CURVE( '', #297, #296, #303, .T. );
#269 = FILL_AREA_STYLE( '', ( #304 ) );
#270 = EDGE_CURVE( '', #305, #305, #306, .T. );
#271 = FILL_AREA_STYLE( '', ( #307 ) );
#272 = FILL_AREA_STYLE( '', ( #308 ) );
#273 = EDGE_CURVE( '', #309, #309, #310, .F. );
#274 = FILL_AREA_STYLE( '', ( #311 ) );
#275 = EDGE_CURVE( '', #312, #312, #313, .T. );
#276 = FILL_AREA_STYLE( '', ( #314 ) );
#277 = FILL_AREA_STYLE( '', ( #315 ) );
#278 = FILL_AREA_STYLE_COLOUR( '', #316 );
#279 = VERTEX_POINT( '', #317 );
#280 = CIRCLE( '', #318, 14.1666666667000 );
#281 = VERTEX_POINT( '', #319 );
#282 = VERTEX_POINT( '', #320 );
#283 = ELLIPSE( '', #321, 15.3338895041000, 14.1666666667000 );
#284 = CIRCLE( '', #322, 14.1666666667000 );
#285 = FILL_AREA_STYLE_COLOUR( '', #323 );
#286 = VERTEX_POINT( '', #324 );
#287 = CIRCLE( '', #325, 16.0000000000000 );
#288 = VERTEX_POINT( '', #326 );
#289 = CIRCLE( '', #327, 16.0000000000000 );
#290 = FILL_AREA_STYLE_COLOUR( '', #328 );
#291 = CIRCLE( '', #329, 14.1666666667000 );
#292 = FILL_AREA_STYLE_COLOUR( '', #330 );
#293 = VERTEX_POINT( '', #331 );
#294 = CIRCLE( '', #332, 21.5000000000000 );
#295 = FILL_AREA_STYLE_COLOUR( '', #333 );
#296 = VERTEX_POINT( '', #334 );
#297 = VERTEX_POINT( '', #335 );
#298 = ELLIPSE( '', #336, 23.2714323063000, 21.5000000000000 );
#299 = CIRCLE( '', #337, 21.5000000000000 );
#300 = FILL_AREA_STYLE_COLOUR( '', #338 );
#301 = VERTEX_POINT( '', #339 );
#302 = CIRCLE( '', #340, 21.5000000000000 );
#303 = CIRCLE( '', #341, 21.5000000000000 );
#304 = FILL_AREA_STYLE_COLOUR( '', #342 );
#305 = VERTEX_POINT( '', #343 );
#306 = CIRCLE( '', #344, 14.1666666667000 );
#307 = FILL_AREA_STYLE_COLOUR( '', #345 );
#308 = FILL_AREA_STYLE_COLOUR( '', #346 );
#309 = VERTEX_POINT( '', #347 );
#310 = CIRCLE( '', #348, 16.0000000000000 );
#311 = FILL_AREA_STYLE_COLOUR( '', #349 );
#312 = VERTEX_POINT( '', #350 );
#313 = CIRCLE( '', #351, 16.0000000000000 );
#314 = FILL_AREA_STYLE_COLOUR( '', #352 );
#315 = FILL_AREA_STYLE_COLOUR( '', #353 );
#316 = COLOUR_RGB( '', 0.713725507300000, 0.709803938900000, 0.650980413000000 );
#317 = CARTESIAN_POINT( '', ( 17.4419672692682, 0.000000000000000, 7.90727513564932 ) );
#318 = AXIS2_PLACEMENT_3D( '', #354, #355, #356 );
#319 = CARTESIAN_POINT( '', ( -6.10235291632616E-15, -14.1666666666667, 10.5000000000000 ) );
#320 = CARTESIAN_POINT( '', ( -1.52558822908154E-15, 14.1666666666667, 10.5000000000000 ) );
#321 = AXIS2_PLACEMENT_3D( '', #357, #358, #359 );
#322 = AXIS2_PLACEMENT_3D( '', #360, #361, #362 );
#323 = COLOUR_RGB( '', 0.713725507300000, 0.709803938900000, 0.650980413000000 );
#324 = CARTESIAN_POINT( '', ( 16.0000000000000, 0.000000000000000, 3.46944695195361E-15 ) );
#325 = AXIS2_PLACEMENT_3D( '', #363, #364, #365 );
#326 = CARTESIAN_POINT( '', ( 16.0000000000000, 0.000000000000000, -20.0000000000000 ) );
#327 = AXIS2_PLACEMENT_3D( '', #366, #367, #368 );
#328 = COLOUR_RGB( '', 0.713725507300000, 0.709803938900000, 0.650980413000000 );
#329 = AXIS2_PLACEMENT_3D( '', #369, #370, #371 );
#330 = COLOUR_RGB( '', 0.713725507300000, 0.709803938900000, 0.650980413000000 );
#331 = CARTESIAN_POINT( '', ( 21.5000000000000, 0.000000000000000, -20.0000000000000 ) );
#332 = AXIS2_PLACEMENT_3D( '', #372, #373, #374 );
#333 = COLOUR_RGB( '', 0.713725507300000, 0.709803938900000, 0.650980413000000 );
#334 = CARTESIAN_POINT( '', ( 1.73472347597681E-15, -21.5000000000000, 10.5000000000000 ) );
#335 = CARTESIAN_POINT( '', ( 1.92592994438724E-31, 21.5000000000000, 10.5000000000000 ) );
#336 = AXIS2_PLACEMENT_3D( '', #375, #376, #377 );
#337 = AXIS2_PLACEMENT_3D( '', #378, #379, #380 );
#338 = COLOUR_RGB( '', 0.713725507300000, 0.709803938900000, 0.650980413000000 );
#339 = CARTESIAN_POINT( '', ( 36.7695526217005, 0.000000000000000, 16.8639610306789 ) );
#340 = AXIS2_PLACEMENT_3D( '', #381, #382, #383 );
#341 = AXIS2_PLACEMENT_3D( '', #384, #385, #386 );
#342 = COLOUR_RGB( '', 0.713725507300000, 0.709803938900000, 0.650980413000000 );
#343 = CARTESIAN_POINT( '', ( 14.1666666666667, 0.000000000000000, 0.000000000000000 ) );
#344 = AXIS2_PLACEMENT_3D( '', #387, #388, #389 );
#345 = COLOUR_RGB( '', 0.713725507300000, 0.709803938900000, 0.650980413000000 );
#346 = COLOUR_RGB( '', 0.713725507300000, 0.709803938900000, 0.650980413000000 );
#347 = CARTESIAN_POINT( '', ( 10.2530483272049, 0.000000000000000, 43.3804653251745 ) );
#348 = AXIS2_PLACEMENT_3D( '', #390, #391, #392 );
#349 = COLOUR_RGB( '', 0.713725507300000, 0.709803938900000, 0.650980413000000 );
#350 = CARTESIAN_POINT( '', ( 18.7383297014435, 0.000000000000000, 6.61091270347399 ) );
#351 = AXIS2_PLACEMENT_3D( '', #393, #394, #395 );
#352 = COLOUR_RGB( '', 0.713725507300000, 0.709803938900000, 0.650980413000000 );
#353 = COLOUR_RGB( '', 0.713725507300000, 0.709803938900000, 0.650980413000000 );
#354 = CARTESIAN_POINT( '', ( 7.42462120245874, 0.000000000000000, 17.9246212024587 ) );
#355 = DIRECTION( '', ( 0.707106781186548, -0.000000000000000, 0.707106781186548 ) );
#356 = DIRECTION( '', ( 0.707106781186547, 0.000000000000000, -0.707106781186547 ) );
#357 = CARTESIAN_POINT( '', ( 0.000000000000000, 0.000000000000000, 10.5000000000000 ) );
#358 = DIRECTION( '', ( 0.382683432365090, 0.000000000000000, 0.923879532511287 ) );
#359 = DIRECTION( '', ( -0.923879532511287, 0.000000000000000, 0.382683432365090 ) );
#360 = CARTESIAN_POINT( '', ( -7.80625564189563E-15, 0.000000000000000, 10.5000000000000 ) );
#361 = DIRECTION( '', ( 0.707106781186548, -0.000000000000000, 0.707106781186548 ) );
#362 = DIRECTION( '', ( 0.707106781186548, 0.000000000000000, -0.707106781186548 ) );
#363 = CARTESIAN_POINT( '', ( 0.000000000000000, 0.000000000000000, 3.46944695195361E-15 ) );
#364 = DIRECTION( '', ( 0.000000000000000, -0.000000000000000, 1.00000000000000 ) );
#365 = DIRECTION( '', ( 1.00000000000000, 0.000000000000000, 0.000000000000000 ) );
#366 = CARTESIAN_POINT( '', ( 0.000000000000000, 0.000000000000000, -20.0000000000000 ) );
#367 = DIRECTION( '', ( 0.000000000000000, 0.000000000000000, 1.00000000000000 ) );
#368 = DIRECTION( '', ( 1.00000000000000, 0.000000000000000, -0.000000000000000 ) );
#369 = CARTESIAN_POINT( '', ( 0.000000000000000, 0.000000000000000, 10.5000000000000 ) );
#370 = DIRECTION( '', ( 0.000000000000000, -0.000000000000000, 1.00000000000000 ) );
#371 = DIRECTION( '', ( 1.00000000000000, 0.000000000000000, 0.000000000000000 ) );
#372 = CARTESIAN_POINT( '', ( 0.000000000000000, 0.000000000000000, -20.0000000000000 ) );
#373 = DIRECTION( '', ( 0.000000000000000, 0.000000000000000, 1.00000000000000 ) );
#374 = DIRECTION( '', ( 1.00000000000000, 0.000000000000000, 0.000000000000000 ) );
#375 = CARTESIAN_POINT( '', ( 1.73472347597681E-15, 0.000000000000000, 10.5000000000000 ) );
#376 = DIRECTION( '', ( -0.382683432365090, 0.000000000000000, -0.923879532511287 ) );
#377 = DIRECTION( '', ( 0.923879532511287, 0.000000000000000, -0.382683432365090 ) );
#378 = CARTESIAN_POINT( '', ( 0.000000000000000, 0.000000000000000, 10.5000000000000 ) );
#379 = DIRECTION( '', ( 0.000000000000000, 0.000000000000000, 1.00000000000000 ) );
#380 = DIRECTION( '', ( 1.00000000000000, 0.000000000000000, 0.000000000000000 ) );
#381 = CARTESIAN_POINT( '', ( 21.5667568261897, 0.000000000000000, 32.0667568261897 ) );
#382 = DIRECTION( '', ( 0.707106781186548, -0.000000000000000, 0.707106781186548 ) );
#383 = DIRECTION( '', ( 0.707106781186547, 0.000000000000000, -0.707106781186547 ) );
#384 = CARTESIAN_POINT( '', ( -1.73472347597681E-15, 0.000000000000000, 10.5000000000000 ) );
#385 = DIRECTION( '', ( 0.707106781186547, -0.000000000000000, 0.707106781186548 ) );
#386 = DIRECTION( '', ( 0.707106781186548, 0.000000000000000, -0.707106781186547 ) );
#387 = CARTESIAN_POINT( '', ( 0.000000000000000, 0.000000000000000, 0.000000000000000 ) );
#388 = DIRECTION( '', ( 0.000000000000000, -0.000000000000000, 1.00000000000000 ) );
#389 = DIRECTION( '', ( 1.00000000000000, 0.000000000000000, 0.000000000000000 ) );
#390 = CARTESIAN_POINT( '', ( 21.5667568261897, 0.000000000000000, 32.0667568261897 ) );
#391 = DIRECTION( '', ( -0.707106781186547, 0.000000000000000, -0.707106781186548 ) );
#392 = DIRECTION( '', ( -0.707106781186548, 0.000000000000000, 0.707106781186547 ) );
#393 = CARTESIAN_POINT( '', ( 7.42462120245874, 0.000000000000000, 17.9246212024587 ) );
#394 = DIRECTION( '', ( 0.707106781186548, -0.000000000000000, 0.707106781186548 ) );
#395 = DIRECTION( '', ( 0.707106781186547, 0.000000000000000, -0.707106781186547 ) );
ENDSEC;
END-ISO-10303-21;
